  0
SECTION
  2
HEADER
  9
$ACADVER
  1
AC1014
  9
$ACADMAINTVER
 70
     9
  9
$DWGCODEPAGE
  3
ANSI_1252
  9
$INSBASE
 10
0.0
 20
0.0
 30
0.0
  9
$EXTMIN
 10
1.000000000000000E+20
 20
1.000000000000000E+20
 30
1.000000000000000E+20
  9
$EXTMAX
 10
-1.000000000000000E+20
 20
-1.000000000000000E+20
 30
-1.000000000000000E+20
  9
$LIMMIN
 10
0.0
 20
0.0
  9
$LIMMAX
 10
12.0
 20
9.0
  9
$ORTHOMODE
 70
     0
  9
$REGENMODE
 70
     1
  9
$FILLMODE
 70
     1
  9
$QTEXTMODE
 70
     0
  9
$MIRRTEXT
 70
     1
  9
$DRAGMODE
 70
     2
  9
$LTSCALE
 40
1.0
  9
$OSMODE
 70
    37
  9
$ATTMODE
 70
     1
  9
$TEXTSIZE
 40
0.2
  9
$TRACEWID
 40
0.05
  9
$TEXTSTYLE
  7
STANDARD
  9
$CLAYER
  8
0
  9
$CELTYPE
  6
BYLAYER
  9
$CECOLOR
 62
   256
  9
$CELTSCALE
 40
1.0
  9
$DELOBJ
 70
     1
  9
$DISPSILH
 70
     0
  9
$DIMSCALE
 40
1.0
  9
$DIMASZ
 40
0.18
  9
$DIMEXO
 40
0.0625
  9
$DIMDLI
 40
0.38
  9
$DIMRND
 40
0.0
  9
$DIMDLE
 40
0.0
  9
$DIMEXE
 40
0.18
  9
$DIMTP
 40
0.0
  9
$DIMTM
 40
0.0
  9
$DIMTXT
 40
0.18
  9
$DIMCEN
 40
0.09
  9
$DIMTSZ
 40
0.0
  9
$DIMTOL
 70
     0
  9
$DIMLIM
 70
     0
  9
$DIMTIH
 70
     1
  9
$DIMTOH
 70
     1
  9
$DIMSE1
 70
     0
  9
$DIMSE2
 70
     0
  9
$DIMTAD
 70
     0
  9
$DIMZIN
 70
     0
  9
$DIMBLK
  1

  9
$DIMASO
 70
     1
  9
$DIMSHO
 70
     1
  9
$DIMPOST
  1

  9
$DIMAPOST
  1

  9
$DIMALT
 70
     0
  9
$DIMALTD
 70
     2
  9
$DIMALTF
 40
25.4
  9
$DIMLFAC
 40
1.0
  9
$DIMTOFL
 70
     0
  9
$DIMTVP
 40
0.0
  9
$DIMTIX
 70
     0
  9
$DIMSOXD
 70
     0
  9
$DIMSAH
 70
     0
  9
$DIMBLK1
  1

  9
$DIMBLK2
  1

  9
$DIMSTYLE
  2
STANDARD
  9
$DIMCLRD
 70
     0
  9
$DIMCLRE
 70
     0
  9
$DIMCLRT
 70
     0
  9
$DIMTFAC
 40
1.0
  9
$DIMGAP
 40
0.09
  9
$DIMJUST
 70
     0
  9
$DIMSD1
 70
     0
  9
$DIMSD2
 70
     0
  9
$DIMTOLJ
 70
     1
  9
$DIMTZIN
 70
     0
  9
$DIMALTZ
 70
     0
  9
$DIMALTTZ
 70
     0
  9
$DIMFIT
 70
     3
  9
$DIMUPT
 70
     0
  9
$DIMUNIT
 70
     2
  9
$DIMDEC
 70
     4
  9
$DIMTDEC
 70
     4
  9
$DIMALTU
 70
     2
  9
$DIMALTTD
 70
     2
  9
$DIMTXSTY
  7
STANDARD
  9
$DIMAUNIT
 70
     0
  9
$LUNITS
 70
     2
  9
$LUPREC
 70
     4
  9
$SKETCHINC
 40
0.1
  9
$FILLETRAD
 40
0.5
  9
$AUNITS
 70
     0
  9
$AUPREC
 70
     0
  9
$MENU
  1
.
  9
$ELEVATION
 40
0.0
  9
$PELEVATION
 40
0.0
  9
$THICKNESS
 40
0.0
  9
$LIMCHECK
 70
     0
  9
$CHAMFERA
 40
0.5
  9
$CHAMFERB
 40
0.5
  9
$CHAMFERC
 40
1.0
  9
$CHAMFERD
 40
0.0
  9
$SKPOLY
 70
     0
  9
$TDCREATE
 40
2456981.465200764
  9
$TDUPDATE
 40
2456981.465200775
  9
$TDINDWG
 40
0.0000000116
  9
$TDUSRTIMER
 40
0.0000000116
  9
$USRTIMER
 70
     1
  9
$ANGBASE
 50
0.0
  9
$ANGDIR
 70
     0
  9
$PDMODE
 70
     0
  9
$PDSIZE
 40
0.0
  9
$PLINEWID
 40
0.0
  9
$COORDS
 70
     1
  9
$SPLFRAME
 70
     0
  9
$SPLINETYPE
 70
     6
  9
$SPLINESEGS
 70
     8
  9
$ATTDIA
 70
     0
  9
$ATTREQ
 70
     1
  9
$HANDLING
 70
     1
  9
$HANDSEED
  5
176
  9
$SURFTAB1
 70
     6
  9
$SURFTAB2
 70
     6
  9
$SURFTYPE
 70
     6
  9
$SURFU
 70
     6
  9
$SURFV
 70
     6
  9
$UCSNAME
  2

  9
$UCSORG
 10
0.0
 20
0.0
 30
0.0
  9
$UCSXDIR
 10
1.0
 20
0.0
 30
0.0
  9
$UCSYDIR
 10
0.0
 20
1.0
 30
0.0
  9
$PUCSNAME
  2

  9
$PUCSORG
 10
0.0
 20
0.0
 30
0.0
  9
$PUCSXDIR
 10
1.0
 20
0.0
 30
0.0
  9
$PUCSYDIR
 10
0.0
 20
1.0
 30
0.0
  9
$USERI1
 70
     0
  9
$USERI2
 70
     0
  9
$USERI3
 70
     0
  9
$USERI4
 70
     0
  9
$USERI5
 70
     0
  9
$USERR1
 40
0.0
  9
$USERR2
 40
0.0
  9
$USERR3
 40
0.0
  9
$USERR4
 40
0.0
  9
$USERR5
 40
0.0
  9
$WORLDVIEW
 70
     1
  9
$SHADEDGE
 70
     3
  9
$SHADEDIF
 70
    70
  9
$TILEMODE
 70
     1
  9
$MAXACTVP
 70
    64
  9
$PINSBASE
 10
0.0
 20
0.0
 30
0.0
  9
$PLIMCHECK
 70
     0
  9
$PEXTMIN
 10
1.000000000000000E+20
 20
1.000000000000000E+20
 30
1.000000000000000E+20
  9
$PEXTMAX
 10
-1.000000000000000E+20
 20
-1.000000000000000E+20
 30
-1.000000000000000E+20
  9
$PLIMMIN
 10
0.0
 20
0.0
  9
$PLIMMAX
 10
12.0
 20
9.0
  9
$UNITMODE
 70
     0
  9
$VISRETAIN
 70
     1
  9
$PLINEGEN
 70
     0
  9
$PSLTSCALE
 70
     1
  9
$TREEDEPTH
 70
  3020
  9
$PICKSTYLE
 70
     1
  9
$CMLSTYLE
  2
STANDARD
  9
$CMLJUST
 70
     0
  9
$CMLSCALE
 40
1.0
  9
$PROXYGRAPHICS
 70
     1
  9
$MEASUREMENT
 70
     0
  0
ENDSEC
  0
SECTION
  2
CLASSES
  0
CLASS
  1
ACDBDICTIONARYWDFLT
  2
AcDbDictionaryWithDefault
  3
ObjectDBX Classes
 90
        0
280
     0
281
     0
  0
CLASS
  1
VISUALSTYLE
  2
AcDbVisualStyle
  3
ObjectDBX Classes
 90
     4095
280
     0
281
     0
  0
CLASS
  1
MATERIAL
  2
AcDbMaterial
  3
ObjectDBX Classes
 90
     1153
280
     0
281
     0
  0
CLASS
  1
DICTIONARYVAR
  2
AcDbDictionaryVar
  3
ObjectDBX Classes
 90
        0
280
     0
281
     0
  0
CLASS
  1
XRECORD
  2
AcDbXrecord
  3
AutoCAD 2000
 90
        0
280
     0
281
     0
  0
CLASS
  1
LWPOLYLINE
  2
AcDbPolyline
  3
AutoCAD 2000
 90
        0
280
     0
281
     1
  0
CLASS
  1
HATCH
  2
AcDbHatch
  3
AutoCAD 2000
 90
        0
280
     0
281
     1
  0
CLASS
  1
ACDBPLACEHOLDER
  2
AcDbPlaceHolder
  3
ObjectDBX Classes
 90
        0
280
     0
281
     0
  0
CLASS
  1
LAYOUT
  2
AcDbLayout
  3
ObjectDBX Classes
 90
        0
280
     0
281
     0
  0
ENDSEC
  0
SECTION
  2
TABLES
  0
TABLE
  2
VPORT
  5
8
330
0
100
AcDbSymbolTable
 70
     1
  0
VPORT
  5
29
330
8
100
AcDbSymbolTableRecord
100
AcDbViewportTableRecord
  2
*ACTIVE
 70
     0
 10
0.0
 20
0.0
 11
1.0
 21
1.0
 12
0.0
 22
0.0
 13
0.0
 23
0.0
 14
0.5
 24
0.5
 15
0.5
 25
0.5
 16
0.0
 26
0.0
 36
1.0
 17
0.0
 27
0.0
 37
-1000.0
 40
8.182562620561239
 41
1.9465737514518
 42
50.0
 43
12.97588653869176
 44
18.54527239717371
 50
0.0
 51
0.0
 71
     0
 72
   100
 73
     1
 74
     3
 75
     0
 76
     0
 77
     0
 78
     0
  0
ENDTAB
  0
TABLE
  2
LTYPE
  5
5
330
0
100
AcDbSymbolTable
 70
     1
  0
LTYPE
  5
14
330
5
100
AcDbSymbolTableRecord
100
AcDbLinetypeTableRecord
  2
BYBLOCK
 70
     0
  3

 72
    65
 73
     0
 40
0.0
  0
LTYPE
  5
15
330
5
100
AcDbSymbolTableRecord
100
AcDbLinetypeTableRecord
  2
BYLAYER
 70
     0
  3

 72
    65
 73
     0
 40
0.0
  0
LTYPE
  5
16
330
5
100
AcDbSymbolTableRecord
100
AcDbLinetypeTableRecord
  2
CONTINUOUS
 70
     0
  3
Solid line
 72
    65
 73
     0
 40
0.0
  0
ENDTAB
  0
TABLE
  2
LAYER
  5
2
330
0
100
AcDbSymbolTable
 70
     3
  0
LAYER
  5
10
330
2
100
AcDbSymbolTableRecord
100
AcDbLayerTableRecord
  2
0
 70
     0
 62
     7
  6
CONTINUOUS
  0
LAYER
  5
3F
330
2
100
AcDbSymbolTableRecord
100
AcDbLayerTableRecord
  2
PROFILEEDGES
 70
     0
 62
     7
  6
CONTINUOUS
  0
LAYER
  5
40
330
2
100
AcDbSymbolTableRecord
100
AcDbLayerTableRecord
  2
SECTIONCUTEDGES
 70
     0
 62
     7
  6
CONTINUOUS
  0
ENDTAB
  0
TABLE
  2
STYLE
  5
3
330
0
100
AcDbSymbolTable
 70
     1
  0
STYLE
  5
11
330
3
100
AcDbSymbolTableRecord
100
AcDbTextStyleTableRecord
  2
STANDARD
 70
     0
 40
0.0
 41
1.0
 50
0.0
 71
     0
 42
0.2
  3
txt
  4

  0
ENDTAB
  0
TABLE
  2
VIEW
  5
6
330
0
100
AcDbSymbolTable
 70
     0
  0
ENDTAB
  0
TABLE
  2
UCS
  5
7
330
0
100
AcDbSymbolTable
 70
     0
  0
ENDTAB
  0
TABLE
  2
APPID
  5
9
330
0
100
AcDbSymbolTable
 70
     1
  0
APPID
  5
12
330
9
100
AcDbSymbolTableRecord
100
AcDbRegAppTableRecord
  2
ACAD
 70
     0
  0
ENDTAB
  0
TABLE
  2
DIMSTYLE
  5
A
330
0
100
AcDbSymbolTable
 70
     1
  0
DIMSTYLE
105
27
330
A
100
AcDbSymbolTableRecord
100
AcDbDimStyleTableRecord
  2
STANDARD
 70
     0
  3

  4

  5

  6

  7

 40
1.0
 41
0.18
 42
0.0625
 43
0.38
 44
0.18
 45
0.0
 46
0.0
 47
0.0
 48
0.0
140
0.18
141
0.09
142
0.0
143
25.4
144
1.0
145
0.0
146
1.0
147
0.09
 71
     0
 72
     0
 73
     1
 74
     1
 75
     0
 76
     0
 77
     0
 78
     0
170
     0
171
     2
172
     0
173
     0
174
     0
175
     0
176
     0
177
     0
178
     0
270
     2
271
     4
272
     4
273
     2
274
     2
340
11
275
     0
280
     0
281
     0
282
     0
283
     1
284
     0
285
     0
286
     0
287
     3
288
     0
  0
ENDTAB
  0
TABLE
  2
BLOCK_RECORD
  5
1
330
0
100
AcDbSymbolTable
 70
     1
  0
BLOCK_RECORD
  5
1F
330
1
100
AcDbSymbolTableRecord
100
AcDbBlockTableRecord
  2
*MODEL_SPACE
  0
BLOCK_RECORD
  5
1B
330
1
100
AcDbSymbolTableRecord
100
AcDbBlockTableRecord
  2
*PAPER_SPACE
  0
ENDTAB
  0
ENDSEC
  0
SECTION
  2
BLOCKS
  0
BLOCK
  5
20
330
1F
100
AcDbEntity
  8
0
100
AcDbBlockBegin
  2
*MODEL_SPACE
 70
     0
 10
0.0
 20
0.0
 30
0.0
  3
*MODEL_SPACE
  1

  0
ENDBLK
  5
21
330
1F
100
AcDbEntity
  8
0
100
AcDbBlockEnd
  0
BLOCK
  5
1C
330
1B
100
AcDbEntity
 67
     1
  8
0
100
AcDbBlockBegin
  2
*PAPER_SPACE
 70
     0
 10
0.0
 20
0.0
 30
0.0
  3
*PAPER_SPACE
  1

  0
ENDBLK
  5
1D
330
1B
100
AcDbEntity
 67
     1
  8
0
100
AcDbBlockEnd
  0
ENDSEC
  0
SECTION
  2
ENTITIES
  0
LINE
  5
41
330
1F
100
AcDbEntity
  8
0
100
AcDbLine
 10
0.020198758223195
 20
0.4214679520987973
 30
0.0
 11
0.0253478040590047
 21
0.0491559381242223
 31
0.0
  0
LINE
  5
42
330
1F
100
AcDbEntity
  8
0
100
AcDbLine
 10
0.0253478040590047
 20
0.0491559381242223
 30
0.0
 11
0.5246468228811625
 21
-0.820033555347543
 31
0.0
  0
LINE
  5
43
330
1F
100
AcDbEntity
  8
0
100
AcDbLine
 10
0.0326107267829749
 20
-0.476004154236545
 30
0.0
 11
0.0410675990239388
 21
-1.087495144287955
 31
0.0
  0
LINE
  5
44
330
1F
100
AcDbEntity
  8
0
100
AcDbLine
 10
-0.3710478462378826
 20
-0.4815860999737008
 30
0.0
 11
-0.3605140462617949
 21
-1.09301978448053
 31
0.0
  0
LINE
  5
45
330
1F
100
AcDbEntity
  8
0
100
AcDbLine
 10
-0.386231685314755
 20
0.399758779633384
 30
0.0
 11
-0.3800944699366615
 21
0.0435245412998935
 31
0.0
  0
LINE
  5
46
330
1F
100
AcDbEntity
  8
0
100
AcDbLine
 10
-0.386231685314755
 20
0.399758779633384
 30
0.0
 11
-1.194282325845454
 21
-0.432787902467014
 31
0.0
  0
LINE
  5
47
330
1F
100
AcDbEntity
  8
0
100
AcDbLine
 10
-0.7320485773766376
 20
0.6259630042225784
 30
0.0
 11
-1.486083598124115
 21
-0.1547227329759673
 31
0.0
  0
LINE
  5
48
330
1F
100
AcDbEntity
  8
0
100
AcDbLine
 10
-0.7320485773766376
 20
0.6259630042225784
 30
0.0
 11
-1.106993524769618
 21
0.6207295687840972
 31
0.0
  0
LINE
  5
49
330
1F
100
AcDbEntity
  8
0
100
AcDbLine
 10
-1.670960319106725
 20
0.6128577896652347
 30
0.0
 11
-2.053596265789774
 21
0.3830524108047293
 31
0.0
  0
LINE
  5
4A
330
1F
100
AcDbEntity
  8
0
100
AcDbLine
 10
-1.670960319106725
 20
0.6128577896652347
 30
0.0
 11
-2.190440390912041
 21
0.6056069507453514
 31
0.0
  0
LINE
  5
4B
330
1F
100
AcDbEntity
  8
0
100
AcDbLine
 10
-1.68355678889874
 20
1.06415231813968
 30
0.0
 11
-2.081667383701161
 21
1.285552633284857
 31
0.0
  0
LINE
  5
4C
330
1F
100
AcDbEntity
  8
0
100
AcDbLine
 10
-1.117468066648581
 20
1.07208346521174
 30
0.0
 11
-0.6372425504334797
 21
1.078811631746693
 31
0.0
  0
LINE
  5
4D
330
1F
100
AcDbEntity
  8
0
100
AcDbLine
 10
-0.6372425504334797
 20
1.078811631746693
 30
0.0
 11
-1.565876644639512
 21
1.985640402224632
 31
0.0
  0
LINE
  5
4E
330
1F
100
AcDbEntity
  8
0
100
AcDbLine
 10
-0.4027179561177154
 20
1.356703217890579
 30
0.0
 11
-1.313490297373524
 21
2.249842157053623
 31
0.0
  0
LINE
  5
4F
330
1F
100
AcDbEntity
  8
0
100
AcDbLine
 10
-0.4105898206878094
 20
1.813625047520649
 30
0.0
 11
-0.4027179561177154
 21
1.356703217890579
 31
0.0
  0
LINE
  5
50
330
1F
100
AcDbEntity
  8
0
100
AcDbLine
 10
-0.0080649075724888
 20
2.465128597244766
 30
0.0
 11
0.1946004041156333
 21
2.864419236319856
 31
0.0
  0
LINE
  5
51
330
1F
100
AcDbEntity
  8
0
100
AcDbLine
 10
0.0008651258424095
 20
1.81942474616639
 30
0.0
 11
0.0067913597516599
 21
1.39091660069738
 31
0.0
  0
LINE
  5
52
330
1F
100
AcDbEntity
  8
0
100
AcDbLine
 10
0.7106145163334465
 20
1.097695690390629
 30
0.0
 11
0.2822667231996336
 21
1.091694353123508
 31
0.0
  0
LINE
  5
53
330
1F
100
AcDbEntity
  8
0
100
AcDbLine
 10
0.7106145163334465
 20
1.097695690390629
 30
0.0
 11
1.380255247221835
 21
1.594049621935652
 31
0.0
  0
LINE
  5
54
330
1F
100
AcDbEntity
  8
0
100
AcDbLine
 10
1.257849716409917
 20
1.105362691488198
 30
0.0
 11
1.574554468706394
 21
1.333823686827455
 31
0.0
  0
LINE
  5
55
330
1F
100
AcDbEntity
  8
0
100
AcDbLine
 10
1.259417574981172
 20
0.6537596437259316
 30
0.0
 11
1.572797761992777
 21
0.4520983463653729
 31
0.0
  0
LINE
  5
56
330
1F
100
AcDbEntity
  8
0
100
AcDbLine
 10
0.7142347672003766
 20
0.6461500491800417
 30
0.0
 11
0.3273702083899404
 21
0.64075024127211
 31
0.0
  0
LINE
  5
57
330
1F
100
AcDbEntity
  8
0
100
AcDbLine
 10
0.0141099228211079
 20
0.8617333223438148
 30
0.0
 11
-0.1935078841552762
 21
1.085028545740729
 31
0.0
  0
LINE
  5
58
330
1F
100
AcDbEntity
  8
0
100
AcDbLine
 10
-0.1935078841552762
 20
1.085028545740729
 30
0.0
 11
-0.3947426834798454
 21
0.8560158846998281
 31
0.0
  0
LINE
  5
59
330
1F
100
AcDbEntity
  8
0
100
AcDbLine
 10
-0.3947426834798454
 20
0.8560158846998281
 30
0.0
 11
-0.1864973148395176
 21
0.6335777416146195
 31
0.0
  0
LINE
  5
5A
330
1F
100
AcDbEntity
  8
0
100
AcDbLine
 10
-0.1864973148395176
 20
0.6335777416146195
 30
0.0
 11
0.0141099228211079
 21
0.8617333223438148
 31
0.0
  0
LINE
  5
5B
330
1F
100
AcDbEntity
  8
0
100
AcDbLine
 10
-0.1469259508577874
 20
2.954415273443653
 30
0.0
 11
-0.1548450037059284
 21
2.973094788845746
 31
0.0
  0
LINE
  5
5C
330
1F
100
AcDbEntity
  8
0
100
AcDbLine
 10
-0.1548450037059284
 20
2.973094788845746
 30
0.0
 11
-0.1672399724904425
 21
2.989060212095191
 31
0.0
  0
LINE
  5
5D
330
1F
100
AcDbEntity
  8
0
100
AcDbLine
 10
-0.1672399724904425
 20
2.989060212095191
 30
0.0
 11
-0.1832667425393524
 21
3.001221029056943
 31
0.0
  0
LINE
  5
5E
330
1F
100
AcDbEntity
  8
0
100
AcDbLine
 10
-0.1832667425393524
 20
3.001221029056943
 30
0.0
 11
-0.201832393018212
 21
3.00874603868795
 31
0.0
  0
LINE
  5
5F
330
1F
100
AcDbEntity
  8
0
100
AcDbLine
 10
-0.201832393018212
 20
3.00874603868795
 30
0.0
 11
-0.2216698710549192
 21
3.011120658497173
 31
0.0
  0
LINE
  5
60
330
1F
100
AcDbEntity
  8
0
100
AcDbLine
 10
-0.2216698710549192
 20
3.011120658497173
 30
0.0
 11
-0.2414248312576399
 21
3.008182466465914
 31
0.0
  0
LINE
  5
61
330
1F
100
AcDbEntity
  8
0
100
AcDbLine
 10
-0.2414248312576399
 20
3.008182466465914
 30
0.0
 11
-0.2597485905943799
 21
3.000132429774015
 31
0.0
  0
LINE
  5
62
330
1F
100
AcDbEntity
  8
0
100
AcDbLine
 10
-0.2597485905943799
 20
3.000132429774015
 30
0.0
 11
-0.2753906869345041
 21
2.987521012057488
 31
0.0
  0
LINE
  5
63
330
1F
100
AcDbEntity
  8
0
100
AcDbLine
 10
-0.2753906869345041
 20
2.987521012057488
 30
0.0
 11
-0.2872845593837108
 21
2.971210159040587
 31
0.0
  0
LINE
  5
64
330
1F
100
AcDbEntity
  8
0
100
AcDbLine
 10
-0.2872845593837108
 20
2.971210159040587
 30
0.0
 11
-0.2946203870740694
 21
2.952313887998685
 31
0.0
  0
LINE
  5
65
330
1F
100
AcDbEntity
  8
0
100
AcDbLine
 10
-0.2946203870740694
 20
2.952313887998685
 30
0.0
 11
-0.296900081430553
 21
2.932121709933885
 31
0.0
  0
LINE
  5
66
330
1F
100
AcDbEntity
  8
0
100
AcDbLine
 10
-0.296900081430553
 20
2.932121709933885
 30
0.0
 11
-0.2939707372553853
 21
2.91201027999739
 31
0.0
  0
LINE
  5
67
330
1F
100
AcDbEntity
  8
0
100
AcDbLine
 10
-0.2939707372553853
 20
2.91201027999739
 30
0.0
 11
-0.2860343955656735
 21
2.893349423136343
 31
0.0
  0
LINE
  5
68
330
1F
100
AcDbEntity
  8
0
100
AcDbLine
 10
-0.2860343955656735
 20
2.893349423136343
 30
0.0
 11
-0.2736336292067185
 21
2.877408980837202
 31
0.0
  0
LINE
  5
69
330
1F
100
AcDbEntity
  8
0
100
AcDbLine
 10
-0.2736336292067185
 20
2.877408980837202
 30
0.0
 11
-0.2576141063091193
 21
2.86527277361123
 31
0.0
  0
LINE
  5
6A
330
1F
100
AcDbEntity
  8
0
100
AcDbLine
 10
-0.2576141063091193
 20
2.86527277361123
 30
0.0
 11
-0.2390668058420064
 21
2.857765408340619
 31
0.0
  0
LINE
  5
6B
330
1F
100
AcDbEntity
  8
0
100
AcDbLine
 10
-0.2390668058420064
 20
2.857765408340619
 30
0.0
 11
-0.2192538638064449
 21
2.855396739720626
 31
0.0
  0
LINE
  5
6C
330
1F
100
AcDbEntity
  8
0
100
AcDbLine
 10
-0.2192538638064449
 20
2.855396739720626
 30
0.0
 11
-0.199523051189341
 21
2.858327595151922
 31
0.0
  0
LINE
  5
6D
330
1F
100
AcDbEntity
  8
0
100
AcDbLine
 10
-0.199523051189341
 20
2.858327595151922
 30
0.0
 11
-0.181216580693603
 21
2.866358973292737
 31
0.0
  0
LINE
  5
6E
330
1F
100
AcDbEntity
  8
0
100
AcDbLine
 10
-0.181216580693603
 20
2.866358973292737
 30
0.0
 11
-0.1655802819190899
 21
2.878945410054413
 31
0.0
  0
LINE
  5
6F
330
1F
100
AcDbEntity
  8
0
100
AcDbLine
 10
-0.1655802819190899
 20
2.878945410054413
 30
0.0
 11
-0.1536791623103106
 21
2.895231653341055
 31
0.0
  0
LINE
  5
70
330
1F
100
AcDbEntity
  8
0
100
AcDbLine
 10
-0.1536791623103106
 20
2.895231653341055
 30
0.0
 11
-0.146324984608774
 21
2.914110280032599
 31
0.0
  0
LINE
  5
71
330
1F
100
AcDbEntity
  8
0
100
AcDbLine
 10
-0.146324984608774
 20
2.914110280032599
 30
0.0
 11
-0.1440207542599777
 21
2.934296506912717
 31
0.0
  0
LINE
  5
72
330
1F
100
AcDbEntity
  8
0
100
AcDbLine
 10
-0.1440207542599777
 20
2.934296506912717
 30
0.0
 11
-0.1469259508577874
 21
2.954415273443653
 31
0.0
  0
LINE
  5
73
330
1F
100
AcDbEntity
  8
0
100
AcDbLine
 10
-0.9175380088534719
 20
2.679765681930411
 30
0.0
 11
-0.9342171710398437
 21
2.717113016057554
 31
0.0
  0
LINE
  5
74
330
1F
100
AcDbEntity
  8
0
100
AcDbLine
 10
-0.9342171710398437
 20
2.717113016057554
 30
0.0
 11
-0.9408585831217292
 21
2.757527584696559
 31
0.0
  0
LINE
  5
75
330
1F
100
AcDbEntity
  8
0
100
AcDbLine
 10
-0.9408585831217292
 20
2.757527584696559
 30
0.0
 11
-0.9369999386809328
 21
2.798258462482849
 31
0.0
  0
LINE
  5
76
330
1F
100
AcDbEntity
  8
0
100
AcDbLine
 10
-0.9369999386809328
 20
2.798258462482849
 30
0.0
 11
-0.9228941518165374
 21
2.836527783569807
 31
0.0
  0
LINE
  5
77
330
1F
100
AcDbEntity
  8
0
100
AcDbLine
 10
-0.9228941518165374
 20
2.836527783569807
 30
0.0
 11
-0.8994948157030126
 21
2.86972060990565
 31
0.0
  0
LINE
  5
78
330
1F
100
AcDbEntity
  8
0
100
AcDbLine
 10
-0.8994948157030126
 20
2.86972060990565
 30
0.0
 11
-0.8772790234215241
 21
2.888181226775899
 31
0.0
  0
LINE
  5
79
330
1F
100
AcDbEntity
  8
0
100
AcDbLine
 10
-0.8683932851978122
 20
2.895564992651939
 30
0.0
 11
-0.8579157599366817
 21
2.900342000687147
 31
0.0
  0
LINE
  5
7A
330
1F
100
AcDbEntity
  8
0
100
AcDbLine
 10
-0.8317111128273862
 20
2.912289460290538
 30
0.0
 11
-0.7919549270433544
 21
2.918746487062608
 31
0.0
  0
LINE
  5
7B
330
1F
100
AcDbEntity
  8
0
100
AcDbLine
 10
-0.7919549270433544
 20
2.918746487062608
 30
0.0
 11
-0.7518437854401692
 21
2.914492787633005
 31
0.0
  0
LINE
  5
7C
330
1F
100
AcDbEntity
  8
0
100
AcDbLine
 10
-0.7518437854401692
 20
2.914492787633005
 30
0.0
 11
-0.7141212587250672
 21
2.899820400726199
 31
0.0
  0
LINE
  5
7D
330
1F
100
AcDbEntity
  8
0
100
AcDbLine
 10
-0.7141212587250672
 20
2.899820400726199
 30
0.0
 11
-0.6813657569479767
 21
2.875736206925021
 31
0.0
  0
LINE
  5
7E
330
1F
100
AcDbEntity
  8
0
100
AcDbLine
 10
-0.6813657569479767
 20
2.875736206925021
 30
0.0
 11
-0.6558127529728571
 21
2.843891433411271
 31
0.0
  0
LINE
  5
7F
330
1F
100
AcDbEntity
  8
0
100
AcDbLine
 10
-0.9175380088534719
 20
2.679765681930411
 30
0.0
 11
-0.4105898206878094
 21
1.813625047520649
 31
0.0
  0
LINE
  5
80
330
1F
100
AcDbEntity
  8
0
100
AcDbLine
 10
-0.8579157599366817
 20
2.900342000687147
 30
0.0
 11
-0.8772790234215241
 21
2.888181226775899
 31
0.0
  0
LINE
  5
81
330
1F
100
AcDbEntity
  8
0
100
AcDbLine
 10
-0.6558127529728571
 20
2.843891433411271
 30
0.0
 11
-0.4217129600216457
 21
2.459266893920667
 31
0.0
  0
LINE
  5
82
330
1F
100
AcDbEntity
  8
0
100
AcDbLine
 10
-0.8772790234215241
 20
2.888181226775899
 30
0.0
 11
-0.8683932851978122
 21
2.895564992651939
 31
0.0
  0
LINE
  5
83
330
1F
100
AcDbEntity
  8
0
100
AcDbLine
 10
-0.8579157599366817
 20
2.900342000687147
 30
0.0
 11
-0.8317111128273862
 21
2.912289460290538
 31
0.0
  0
LINE
  5
84
330
1F
100
AcDbEntity
  8
0
100
AcDbLine
 10
0.1946004041156333
 20
2.864419236319856
 30
0.0
 11
0.2183031628645255
 21
2.899428217363133
 31
0.0
  0
LINE
  5
85
330
1F
100
AcDbEntity
  8
0
100
AcDbLine
 10
0.2183031628645255
 20
2.899428217363133
 30
0.0
 11
0.2498748802834206
 21
2.92729680337878
 31
0.0
  0
LINE
  5
86
330
1F
100
AcDbEntity
  8
0
100
AcDbLine
 10
0.2498748802834206
 20
2.92729680337878
 30
0.0
 11
0.2872967266133184
 21
2.946233524312318
 31
0.0
  0
LINE
  5
87
330
1F
100
AcDbEntity
  8
0
100
AcDbLine
 10
0.2872967266133184
 20
2.946233524312318
 30
0.0
 11
0.3281711163675973
 21
2.955019710394156
 31
0.0
  0
LINE
  5
88
330
1F
100
AcDbEntity
  8
0
100
AcDbLine
 10
0.3281711163675973
 20
2.955019710394156
 30
0.0
 11
0.3698765331113744
 21
2.95308955280168
 31
0.0
  0
LINE
  5
89
330
1F
100
AcDbEntity
  8
0
100
AcDbLine
 10
0.3698765331113744
 20
2.95308955280168
 30
0.0
 11
0.3795994738132852
 21
2.950035125291471
 31
0.0
  0
LINE
  5
8A
330
1F
100
AcDbEntity
  8
0
100
AcDbLine
 10
0.4097375044153129
 20
2.940567369331968
 30
0.0
 11
0.4365504750086485
 21
2.923699625623752
 31
0.0
  0
LINE
  5
8B
330
1F
100
AcDbEntity
  8
0
100
AcDbLine
 10
0.4451982412922895
 20
2.918259411350839
 30
0.0
 11
0.4739881668970424
 21
2.887600798945529
 31
0.0
  0
LINE
  5
8C
330
1F
100
AcDbEntity
  8
0
100
AcDbLine
 10
0.4739881668970424
 20
2.887600798945529
 30
0.0
 11
0.4942681957908145
 21
2.850561368058362
 31
0.0
  0
LINE
  5
8D
330
1F
100
AcDbEntity
  8
0
100
AcDbLine
 10
0.4942681957908145
 20
2.850561368058362
 30
0.0
 11
0.5047481162675146
 21
2.809517067527236
 31
0.0
  0
LINE
  5
8E
330
1F
100
AcDbEntity
  8
0
100
AcDbLine
 10
0.5047481162675146
 20
2.809517067527236
 30
0.0
 11
0.5047676112787183
 21
2.76709581494232
 31
0.0
  0
LINE
  5
8F
330
1F
100
AcDbEntity
  8
0
100
AcDbLine
 10
0.5047676112787183
 20
2.76709581494232
 30
0.0
 11
0.494336102525154
 21
2.726008246292051
 31
0.0
  0
LINE
  5
90
330
1F
100
AcDbEntity
  8
0
100
AcDbLine
 10
0.3795994738132852
 20
2.950035125291471
 30
0.0
 11
0.4365504750086485
 21
2.923699625623752
 31
0.0
  0
LINE
  5
91
330
1F
100
AcDbEntity
  8
0
100
AcDbLine
 10
0.494336102525154
 20
2.726008246292051
 30
0.0
 11
0.0008651258424095
 21
1.81942474616639
 31
0.0
  0
LINE
  5
92
330
1F
100
AcDbEntity
  8
0
100
AcDbLine
 10
0.3795994738132852
 20
2.950035125291471
 30
0.0
 11
0.4097375044153129
 21
2.940567369331968
 31
0.0
  0
LINE
  5
93
330
1F
100
AcDbEntity
  8
0
100
AcDbLine
 10
0.4365504750086485
 20
2.923699625623752
 30
0.0
 11
0.4451982412922895
 21
2.918259411350839
 31
0.0
  0
LINE
  5
94
330
1F
100
AcDbEntity
  8
0
100
AcDbLine
 10
-1.565876644639512
 20
1.985640402224632
 30
0.0
 11
-1.586790233502476
 21
2.023687157572435
 31
0.0
  0
LINE
  5
95
330
1F
100
AcDbEntity
  8
0
100
AcDbLine
 10
-1.586790233502476
 20
2.023687157572435
 30
0.0
 11
-1.59859344884108
 21
2.065478795057592
 31
0.0
  0
LINE
  5
96
330
1F
100
AcDbEntity
  8
0
100
AcDbLine
 10
-1.59859344884108
 20
2.065478795057592
 30
0.0
 11
-1.600649332052328
 21
2.108796594958362
 31
0.0
  0
LINE
  5
97
330
1F
100
AcDbEntity
  8
0
100
AcDbLine
 10
-1.600649332052328
 20
2.108796594958362
 30
0.0
 11
-1.592838177975167
 21
2.151336052599933
 31
0.0
  0
LINE
  5
98
330
1F
100
AcDbEntity
  8
0
100
AcDbLine
 10
-1.592838177975167
 20
2.151336052599933
 30
0.0
 11
-1.575566066989629
 21
2.190829351596498
 31
0.0
  0
LINE
  5
99
330
1F
100
AcDbEntity
  8
0
100
AcDbLine
 10
-1.575566066989629
 20
2.190829351596498
 30
0.0
 11
-1.549745276922521
 21
2.225166880016561
 31
0.0
  0
LINE
  5
9A
330
1F
100
AcDbEntity
  8
0
100
AcDbLine
 10
-1.549745276922521
 20
2.225166880016561
 30
0.0
 11
-1.51674719044947
 21
2.252511151644559
 31
0.0
  0
LINE
  5
9B
330
1F
100
AcDbEntity
  8
0
100
AcDbLine
 10
-1.51674719044947
 20
2.252511151644559
 30
0.0
 11
-1.478329894784616
 21
2.271396723566153
 31
0.0
  0
LINE
  5
9C
330
1F
100
AcDbEntity
  8
0
100
AcDbLine
 10
-1.478329894784616
 20
2.271396723566153
 30
0.0
 11
-1.436544201213032
 21
2.280810343628734
 31
0.0
  0
LINE
  5
9D
330
1F
100
AcDbEntity
  8
0
100
AcDbLine
 10
-1.436544201213032
 20
2.280810343628734
 30
0.0
 11
-1.39362317230862
 21
2.280246605509761
 31
0.0
  0
LINE
  5
9E
330
1F
100
AcDbEntity
  8
0
100
AcDbLine
 10
-1.39362317230862
 20
2.280246605509761
 30
0.0
 11
-1.351861316841733
 21
2.269735782116868
 31
0.0
  0
LINE
  5
9F
330
1F
100
AcDbEntity
  8
0
100
AcDbLine
 10
-1.351861316841733
 20
2.269735782116868
 30
0.0
 11
-1.313490297373524
 21
2.249842157053623
 31
0.0
  0
LINE
  5
A0
330
1F
100
AcDbEntity
  8
0
100
AcDbLine
 10
0.8728175716486097
 20
2.29008228082385
 30
0.0
 11
0.9153574694755134
 21
2.31470406117047
 31
0.0
  0
LINE
  5
A1
330
1F
100
AcDbEntity
  8
0
100
AcDbLine
 10
0.9153574694755134
 20
2.31470406117047
 30
0.0
 11
0.9623317877013989
 21
2.328634550748923
 31
0.0
  0
LINE
  5
A2
330
1F
100
AcDbEntity
  8
0
100
AcDbLine
 10
0.9623317877013989
 20
2.328634550748923
 30
0.0
 11
1.011135394626542
 21
2.331097133374768
 31
0.0
  0
LINE
  5
A3
330
1F
100
AcDbEntity
  8
0
100
AcDbLine
 10
1.011135394626542
 20
2.331097133374768
 30
0.0
 11
1.059060103963575
 21
2.3219544673647
 31
0.0
  0
LINE
  5
A4
330
1F
100
AcDbEntity
  8
0
100
AcDbLine
 10
1.059060103963575
 20
2.3219544673647
 30
0.0
 11
1.103447176094157
 21
2.301716369974654
 31
0.0
  0
LINE
  5
A5
330
1F
100
AcDbEntity
  8
0
100
AcDbLine
 10
1.103447176094157
 20
2.301716369974654
 30
0.0
 11
1.14183688705
 21
2.271510568054087
 31
0.0
  0
LINE
  5
A6
330
1F
100
AcDbEntity
  8
0
100
AcDbLine
 10
1.14183688705
 20
2.271510568054087
 30
0.0
 11
1.172106298388357
 21
2.233018172710498
 31
0.0
  0
LINE
  5
A7
330
1F
100
AcDbEntity
  8
0
100
AcDbLine
 10
1.172106298388357
 20
2.233018172710498
 30
0.0
 11
1.192587192375165
 21
2.188377938458301
 31
0.0
  0
LINE
  5
A8
330
1F
100
AcDbEntity
  8
0
100
AcDbLine
 10
1.192587192375165
 20
2.188377938458301
 30
0.0
 11
1.202157506017041
 21
2.140065234719785
 31
0.0
  0
LINE
  5
A9
330
1F
100
AcDbEntity
  8
0
100
AcDbLine
 10
1.202157506017041
 20
2.140065234719785
 30
0.0
 11
1.200301367316295
 21
2.090753055315421
 31
0.0
  0
LINE
  5
AA
330
1F
100
AcDbEntity
  8
0
100
AcDbLine
 10
1.200301367316295
 20
2.090753055315421
 30
0.0
 11
1.187134841794406
 21
2.043163243548241
 31
0.0
  0
LINE
  5
AB
330
1F
100
AcDbEntity
  8
0
100
AcDbLine
 10
1.187134841794406
 20
2.043163243548241
 30
0.0
 11
1.163396566940422
 21
1.999916401968312
 31
0.0
  0
LINE
  5
AC
330
1F
100
AcDbEntity
  8
0
100
AcDbLine
 10
0.8728175716486097
 20
2.29008228082385
 30
0.0
 11
0.0067913597516599
 21
1.39091660069738
 31
0.0
  0
LINE
  5
AD
330
1F
100
AcDbEntity
  8
0
100
AcDbLine
 10
1.163396566940422
 20
1.999916401968312
 30
0.0
 11
0.2822667231996336
 21
1.091694353123508
 31
0.0
  0
LINE
  5
AE
330
1F
100
AcDbEntity
  8
0
100
AcDbLine
 10
1.380255247221835
 20
1.594049621935652
 30
0.0
 11
1.417309546426694
 21
1.614730932233705
 31
0.0
  0
LINE
  5
AF
330
1F
100
AcDbEntity
  8
0
100
AcDbLine
 10
1.417309546426694
 20
1.614730932233705
 30
0.0
 11
1.458288940397629
 21
1.625205118523731
 31
0.0
  0
LINE
  5
B0
330
1F
100
AcDbEntity
  8
0
100
AcDbLine
 10
1.458288940397629
 20
1.625205118523731
 30
0.0
 11
1.500439550590987
 21
1.624765450916543
 31
0.0
  0
LINE
  5
B1
330
1F
100
AcDbEntity
  8
0
100
AcDbLine
 10
1.500439550590987
 20
1.624765450916543
 30
0.0
 11
1.540927783761736
 21
1.613441602511722
 31
0.0
  0
LINE
  5
B2
330
1F
100
AcDbEntity
  8
0
100
AcDbLine
 10
1.577033015667337
 20
1.5919976009489
 30
0.0
 11
1.606332271653764
 21
1.561879142062626
 31
0.0
  0
LINE
  5
B3
330
1F
100
AcDbEntity
  8
0
100
AcDbLine
 10
1.606332271653764
 20
1.561879142062626
 30
0.0
 11
1.62686387455394
 21
1.525114199337313
 31
0.0
  0
LINE
  5
B4
330
1F
100
AcDbEntity
  8
0
100
AcDbLine
 10
1.63725873258484
 20
1.48417427054868
 30
0.0
 11
1.636830497819723
 21
1.441806335348641
 31
0.0
  0
LINE
  5
B5
330
1F
100
AcDbEntity
  8
0
100
AcDbLine
 10
1.636830497819723
 20
1.441806335348641
 30
0.0
 11
1.625618962981483
 21
1.400847447135037
 31
0.0
  0
LINE
  5
B6
330
1F
100
AcDbEntity
  8
0
100
AcDbLine
 10
1.625618962981483
 20
1.400847447135037
 30
0.0
 11
1.60438446897772
 21
1.364034757046297
 31
0.0
  0
LINE
  5
B7
330
1F
100
AcDbEntity
  8
0
100
AcDbLine
 10
1.60438446897772
 20
1.364034757046297
 30
0.0
 11
1.574554468706394
 21
1.333823686827455
 31
0.0
  0
LINE
  5
B8
330
1F
100
AcDbEntity
  8
0
100
AcDbLine
 10
1.66762966126147
 20
1.111103885195219
 30
0.0
 11
1.709824259013051
 21
1.088965713973838
 31
0.0
  0
LINE
  5
B9
330
1F
100
AcDbEntity
  8
0
100
AcDbLine
 10
1.709824259013051
 20
1.088965713973838
 30
0.0
 11
1.746779423424286
 21
1.05895927062919
 31
0.0
  0
LINE
  5
BA
330
1F
100
AcDbEntity
  8
0
100
AcDbLine
 10
1.746779423424286
 20
1.05895927062919
 30
0.0
 11
1.777077762278076
 21
1.022244380055404
 31
0.0
  0
LINE
  5
BB
330
1F
100
AcDbEntity
  8
0
100
AcDbLine
 10
1.777077762278076
 20
1.022244380055404
 30
0.0
 11
1.79956109353936
 21
0.9802378475585973
 31
0.0
  0
LINE
  5
BC
330
1F
100
AcDbEntity
  8
0
100
AcDbLine
 10
1.79956109353936
 20
0.9802378475585973
 30
0.0
 11
1.813374478508502
 21
0.9345575523292133
 31
0.0
  0
LINE
  5
BD
330
1F
100
AcDbEntity
  8
0
100
AcDbLine
 10
1.813374478508502
 20
0.9345575523292133
 30
0.0
 11
1.817998038038764
 21
0.8869590825726623
 31
0.0
  0
LINE
  5
BE
330
1F
100
AcDbEntity
  8
0
100
AcDbLine
 10
1.817998038038764
 20
0.8869590825726623
 30
0.0
 11
1.813265476102258
 21
0.8392675525752897
 31
0.0
  0
LINE
  5
BF
330
1F
100
AcDbEntity
  8
0
100
AcDbLine
 10
1.813265476102258
 20
0.8392675525752897
 30
0.0
 11
1.799368813525654
 21
0.7933073559392545
 31
0.0
  0
LINE
  5
C0
330
1F
100
AcDbEntity
  8
0
100
AcDbLine
 10
1.799368813525654
 20
0.7933073559392545
 30
0.0
 11
1.776849399395946
 21
0.7508325965341307
 31
0.0
  0
LINE
  5
C1
330
1F
100
AcDbEntity
  8
0
100
AcDbLine
 10
1.776849399395946
 20
0.7508325965341307
 30
0.0
 11
1.746575791716674
 21
0.713460814088213
 31
0.0
  0
LINE
  5
C2
330
1F
100
AcDbEntity
  8
0
100
AcDbLine
 10
1.746575791716674
 20
0.713460814088213
 30
0.0
 11
1.709709563045502
 21
0.6826124045290473
 31
0.0
  0
LINE
  5
C3
330
1F
100
AcDbEntity
  8
0
100
AcDbLine
 10
1.709709563045502
 20
0.6826124045290473
 30
0.0
 11
1.667660479594968
 21
0.6594578479539648
 31
0.0
  0
LINE
  5
C4
330
1F
100
AcDbEntity
  8
0
100
AcDbLine
 10
1.66762966126147
 20
1.111103885195219
 30
0.0
 11
1.257849716409917
 21
1.105362691488198
 31
0.0
  0
LINE
  5
C5
330
1F
100
AcDbEntity
  8
0
100
AcDbLine
 10
1.667660479594968
 20
0.6594578479539648
 30
0.0
 11
1.259417574981172
 21
0.6537596437259316
 31
0.0
  0
LINE
  5
C6
330
1F
100
AcDbEntity
  8
0
100
AcDbLine
 10
1.572797761992777
 20
0.4520983463653729
 30
0.0
 11
1.602374431279119
 21
0.4269700933198102
 31
0.0
  0
LINE
  5
C7
330
1F
100
AcDbEntity
  8
0
100
AcDbLine
 10
1.602374431279119
 20
0.4269700933198102
 30
0.0
 11
1.624310749874336
 21
0.3949891221855123
 31
0.0
  0
LINE
  5
C8
330
1F
100
AcDbEntity
  8
0
100
AcDbLine
 10
1.624310749874336
 20
0.3949891221855123
 30
0.0
 11
1.637115259754927
 21
0.3583439169204766
 31
0.0
  0
LINE
  5
C9
330
1F
100
AcDbEntity
  8
0
100
AcDbLine
 10
1.637115259754927
 20
0.3583439169204766
 30
0.0
 11
1.639922864050884
 21
0.3195379341581713
 31
0.0
  0
LINE
  5
CA
330
1F
100
AcDbEntity
  8
0
100
AcDbLine
 10
1.639922864050884
 20
0.3195379341581713
 30
0.0
 11
1.632551763577662
 21
0.2812173535451702
 31
0.0
  0
LINE
  5
CB
330
1F
100
AcDbEntity
  8
0
100
AcDbLine
 10
1.632551763577662
 20
0.2812173535451702
 30
0.0
 11
1.615513289664592
 21
0.2459903190227518
 31
0.0
  0
LINE
  5
CC
330
1F
100
AcDbEntity
  8
0
100
AcDbLine
 10
1.615513289664592
 20
0.2459903190227518
 30
0.0
 11
1.589974649211543
 21
0.216250099447244
 31
0.0
  0
LINE
  5
CD
330
1F
100
AcDbEntity
  8
0
100
AcDbLine
 10
1.589974649211543
 20
0.216250099447244
 30
0.0
 11
1.557677763978935
 21
0.1940139746754188
 31
0.0
  0
LINE
  5
CE
330
1F
100
AcDbEntity
  8
0
100
AcDbLine
 10
1.557677763978935
 20
0.1940139746754188
 30
0.0
 11
1.520820164325108
 21
0.1807882942486682
 31
0.0
  0
LINE
  5
CF
330
1F
100
AcDbEntity
  8
0
100
AcDbLine
 10
1.520820164325108
 20
0.1807882942486682
 30
0.0
 11
1.481906157053338
 21
0.1774682281615447
 31
0.0
  0
LINE
  5
D0
330
1F
100
AcDbEntity
  8
0
100
AcDbLine
 10
1.481906157053338
 20
0.1774682281615447
 30
0.0
 11
1.443578160917735
 21
0.1842784009693937
 31
0.0
  0
LINE
  5
D1
330
1F
100
AcDbEntity
  8
0
100
AcDbLine
 10
1.443578160917735
 20
0.1842784009693937
 30
0.0
 11
1.40843917033496
 21
0.200758019567152
 31
0.0
  0
LINE
  5
D2
330
1F
100
AcDbEntity
  8
0
100
AcDbLine
 10
1.40843917033496
 20
0.200758019567152
 30
0.0
 11
0.7142347672003766
 21
0.6461500491800417
 31
0.0
  0
LINE
  5
D3
330
1F
100
AcDbEntity
  8
0
100
AcDbLine
 10
1.130423457547419
 20
-0.146755147895718
 30
0.0
 11
1.149390742612695
 21
-0.1845238594584318
 31
0.0
  0
LINE
  5
D4
330
1F
100
AcDbEntity
  8
0
100
AcDbLine
 10
1.149390742612695
 20
-0.1845238594584318
 30
0.0
 11
1.159289050028033
 21
-0.2256077572773884
 31
0.0
  0
LINE
  5
D5
330
1F
100
AcDbEntity
  8
0
100
AcDbLine
 10
1.159289050028033
 20
-0.2256077572773884
 30
0.0
 11
1.159622569771704
 21
-0.2679072868526932
 31
0.0
  0
LINE
  5
D6
330
1F
100
AcDbEntity
  8
0
100
AcDbLine
 10
1.159622569771704
 20
-0.2679072868526932
 30
0.0
 11
1.150384319902211
 21
-0.3092652269205972
 31
0.0
  0
LINE
  5
D7
330
1F
100
AcDbEntity
  8
0
100
AcDbLine
 10
1.150384319902211
 20
-0.3092652269205972
 30
0.0
 11
1.132054483673426
 21
-0.3475767453497933
 31
0.0
  0
LINE
  5
D8
330
1F
100
AcDbEntity
  8
0
100
AcDbLine
 10
1.132054483673426
 20
-0.3475767453497933
 30
0.0
 11
1.105574093623221
 21
-0.3808959038193196
 31
0.0
  0
LINE
  5
D9
330
1F
100
AcDbEntity
  8
0
100
AcDbLine
 10
1.105574093623221
 20
-0.3808959038193196
 30
0.0
 11
1.072295771210991
 21
-0.4075333488663513
 31
0.0
  0
LINE
  5
DA
330
1F
100
AcDbEntity
  8
0
100
AcDbLine
 10
1.072295771210991
 20
-0.4075333488663513
 30
0.0
 11
1.033914287619138
 21
-0.4261405177808426
 31
0.0
  0
LINE
  5
DB
330
1F
100
AcDbEntity
  8
0
100
AcDbLine
 10
1.033914287619138
 20
-0.4261405177808426
 30
0.0
 11
0.9923805776541329
 21
-0.435776454164293
 31
0.0
  0
LINE
  5
DC
330
1F
100
AcDbEntity
  8
0
100
AcDbLine
 10
0.9923805776541329
 20
-0.435776454164293
 30
0.0
 11
0.9498035027635248
 21
-0.4359542157826872
 31
0.0
  0
LINE
  5
DD
330
1F
100
AcDbEntity
  8
0
100
AcDbLine
 10
0.9498035027635248
 20
-0.4359542157826872
 30
0.0
 11
0.9083441226734832
 21
-0.4266648218310648
 31
0.0
  0
LINE
  5
DE
330
1F
100
AcDbEntity
  8
0
100
AcDbLine
 10
0.9083441226734832
 20
-0.4266648218310648
 30
0.0
 11
0.8701075059253599
 21
-0.408377694159178
 31
0.0
  0
LINE
  5
DF
330
1F
100
AcDbEntity
  8
0
100
AcDbLine
 10
1.130423457547419
 20
-0.146755147895718
 30
0.0
 11
0.3273702083899404
 21
0.64075024127211
 31
0.0
  0
LINE
  5
E0
330
1F
100
AcDbEntity
  8
0
100
AcDbLine
 10
0.8701075059253599
 20
-0.408377694159178
 30
0.0
 11
0.020198758223195
 21
0.4214679520987973
 31
0.0
  0
LINE
  5
E1
330
1F
100
AcDbEntity
  8
0
100
AcDbLine
 10
0.5246468228811625
 20
-0.820033555347543
 30
0.0
 11
0.5365780084234322
 21
-0.855024750866078
 31
0.0
  0
LINE
  5
E2
330
1F
100
AcDbEntity
  8
0
100
AcDbLine
 10
0.5365780084234322
 20
-0.855024750866078
 30
0.0
 11
0.5389116696779409
 21
-0.8918896812653538
 31
0.0
  0
LINE
  5
E3
330
1F
100
AcDbEntity
  8
0
100
AcDbLine
 10
0.5389116696779409
 20
-0.8918896812653538
 30
0.0
 11
0.5314975628080222
 21
-0.9281149162591646
 31
0.0
  0
LINE
  5
E4
330
1F
100
AcDbEntity
  8
0
100
AcDbLine
 10
0.5314975628080222
 20
-0.9281149162591646
 30
0.0
 11
0.5148491219925801
 21
-0.9612351066623204
 31
0.0
  0
LINE
  5
E5
330
1F
100
AcDbEntity
  8
0
100
AcDbLine
 10
0.5148491219925801
 20
-0.9612351066623204
 30
0.0
 11
0.4901062828297964
 21
-0.989000093431131
 31
0.0
  0
LINE
  5
E6
330
1F
100
AcDbEntity
  8
0
100
AcDbLine
 10
0.4901062828297964
 20
-0.989000093431131
 30
0.0
 11
0.4589563645391894
 21
-1.00952639489876
 31
0.0
  0
LINE
  5
E7
330
1F
100
AcDbEntity
  8
0
100
AcDbLine
 10
0.4589563645391894
 20
-1.00952639489876
 30
0.0
 11
0.4235187830009685
 21
-1.021423247008238
 31
0.0
  0
LINE
  5
E8
330
1F
100
AcDbEntity
  8
0
100
AcDbLine
 10
0.4235187830009685
 20
-1.021423247008238
 30
0.0
 11
0.3862015282282034
 21
-1.023885225597881
 31
0.0
  0
LINE
  5
E9
330
1F
100
AcDbEntity
  8
0
100
AcDbLine
 10
0.3862015282282034
 20
-1.023885225597881
 30
0.0
 11
0.3495389419563217
 21
-1.016745712740754
 31
0.0
  0
LINE
  5
EA
330
1F
100
AcDbEntity
  8
0
100
AcDbLine
 10
0.3495389419563217
 20
-1.016745712740754
 30
0.0
 11
0.3160213493860475
 21
-1.000487941427565
 31
0.0
  0
LINE
  5
EB
330
1F
100
AcDbEntity
  8
0
100
AcDbLine
 10
0.3160213493860475
 20
-1.000487941427565
 30
0.0
 11
0.2879275312886423
 21
-0.9762129482577677
 31
0.0
  0
LINE
  5
EC
330
1F
100
AcDbEntity
  8
0
100
AcDbLine
 10
0.2879275312886423
 20
-0.9762129482577677
 30
0.0
 11
0.2671708712423746
 21
-0.9455663832267923
 31
0.0
  0
LINE
  5
ED
330
1F
100
AcDbEntity
  8
0
100
AcDbLine
 10
0.2671708712423746
 20
-0.9455663832267923
 30
0.0
 11
0.0326107267829749
 21
-0.476004154236545
 31
0.0
  0
LINE
  5
EE
330
1F
100
AcDbEntity
  8
0
100
AcDbLine
 10
-0.3605140462617949
 20
-1.09301978448053
 30
0.0
 11
-0.3422442123276201
 21
-1.132925965091828
 31
0.0
  0
LINE
  5
EF
330
1F
100
AcDbEntity
  8
0
100
AcDbLine
 10
-0.3422442123276201
 20
-1.132925965091828
 30
0.0
 11
-0.3158992261793744
 21
-1.168166103381219
 31
0.0
  0
LINE
  5
F0
330
1F
100
AcDbEntity
  8
0
100
AcDbLine
 10
-0.3158992261793744
 20
-1.168166103381219
 30
0.0
 11
-0.2826569083856197
 21
-1.197178328244278
 31
0.0
  0
LINE
  5
F1
330
1F
100
AcDbEntity
  8
0
100
AcDbLine
 10
-0.2826569083856197
 20
-1.197178328244278
 30
0.0
 11
-0.2439983944365987
 21
-1.218678867491767
 31
0.0
  0
LINE
  5
F2
330
1F
100
AcDbEntity
  8
0
100
AcDbLine
 10
-0.2439983944365987
 20
-1.218678867491767
 30
0.0
 11
-0.2016423084305578
 21
-1.231717543271775
 31
0.0
  0
LINE
  5
F3
330
1F
100
AcDbEntity
  8
0
100
AcDbLine
 10
-0.2016423084305578
 20
-1.231717543271775
 30
0.0
 11
-0.1574690537304008
 21
-1.235718635019922
 31
0.0
  0
LINE
  5
F4
330
1F
100
AcDbEntity
  8
0
100
AcDbLine
 10
-0.1574690537304008
 20
-1.235718635019922
 30
0.0
 11
-0.1134384329240995
 21
-1.230505550930806
 31
0.0
  0
LINE
  5
F5
330
1F
100
AcDbEntity
  8
0
100
AcDbLine
 10
-0.1134384329240995
 20
-1.230505550930806
 30
0.0
 11
-0.071504012701064
 21
-1.216308382206965
 31
0.0
  0
LINE
  5
F6
330
1F
100
AcDbEntity
  8
0
100
AcDbLine
 10
-0.071504012701064
 20
-1.216308382206965
 30
0.0
 11
-0.0335277450350133
 21
-1.193754058980895
 31
0.0
  0
LINE
  5
F7
330
1F
100
AcDbEntity
  8
0
100
AcDbLine
 10
-0.0335277450350133
 20
-1.193754058980895
 30
0.0
 11
-0.0011983483974289
 21
-1.163839474440676
 31
0.0
  0
LINE
  5
F8
330
1F
100
AcDbEntity
  8
0
100
AcDbLine
 10
-0.0011983483974289
 20
-1.163839474440676
 30
0.0
 11
0.0240431586776528
 21
-1.127888587375749
 31
0.0
  0
LINE
  5
F9
330
1F
100
AcDbEntity
  8
0
100
AcDbLine
 10
0.0240431586776528
 20
-1.127888587375749
 30
0.0
 11
0.0410675990239388
 21
-1.087495144287955
 31
0.0
  0
LINE
  5
FA
330
1F
100
AcDbEntity
  8
0
100
AcDbLine
 10
-0.8544822935675175
 20
-0.8259066110240043
 30
0.0
 11
-0.8658090124217238
 21
-0.8612216651268845
 31
0.0
  0
LINE
  5
FB
330
1F
100
AcDbEntity
  8
0
100
AcDbLine
 10
-0.8658090124217238
 20
-0.8612216651268845
 30
0.0
 11
-0.8674661563706813
 21
-0.8982700332938806
 31
0.0
  0
LINE
  5
FC
330
1F
100
AcDbEntity
  8
0
100
AcDbLine
 10
-0.8674661563706813
 20
-0.8982700332938806
 30
0.0
 11
-0.8593496911244308
 21
-0.9345260471324411
 31
0.0
  0
LINE
  5
FD
330
1F
100
AcDbEntity
  8
0
100
AcDbLine
 10
-0.8593496911244308
 20
-0.9345260471324411
 30
0.0
 11
-0.842020861783141
 21
-0.9675225387153359
 31
0.0
  0
LINE
  5
FE
330
1F
100
AcDbEntity
  8
0
100
AcDbLine
 10
-0.842020861783141
 20
-0.9675225387153359
 30
0.0
 11
-0.8166657726859267
 21
-0.9950179989720155
 31
0.0
  0
LINE
  5
FF
330
1F
100
AcDbEntity
  8
0
100
AcDbLine
 10
-0.8166657726859267
 20
-0.9950179989720155
 30
0.0
 11
-0.7850131766401491
 21
-1.015147416746012
 31
0.0
  0
LINE
  5
100
330
1F
100
AcDbEntity
  8
0
100
AcDbLine
 10
-0.7850131766401491
 20
-1.015147416746012
 30
0.0
 11
-0.7492164419788689
 21
-1.026547033056971
 31
0.0
  0
LINE
  5
101
330
1F
100
AcDbEntity
  8
0
100
AcDbLine
 10
-0.7492164419788689
 20
-1.026547033056971
 30
0.0
 11
-0.7117077974402264
 21
-1.028445134388612
 31
0.0
  0
LINE
  5
102
330
1F
100
AcDbEntity
  8
0
100
AcDbLine
 10
-0.7117077974402264
 20
-1.028445134388612
 30
0.0
 11
-0.6750345211163764
 21
-1.020713268529579
 31
0.0
  0
LINE
  5
103
330
1F
100
AcDbEntity
  8
0
100
AcDbLine
 10
-0.6750345211163764
 20
-1.020713268529579
 30
0.0
 11
-0.6416877190189704
 21
-1.003874758139494
 31
0.0
  0
LINE
  5
104
330
1F
100
AcDbEntity
  8
0
100
AcDbLine
 10
-0.6416877190189704
 20
-1.003874758139494
 30
0.0
 11
-0.6139347300770545
 21
-0.9790699956525716
 31
0.0
  0
LINE
  5
105
330
1F
100
AcDbEntity
  8
0
100
AcDbLine
 10
-0.6139347300770545
 20
-0.9790699956525716
 30
0.0
 11
-0.5936660005643762
 21
-0.9479806300020348
 31
0.0
  0
LINE
  5
106
330
1F
100
AcDbEntity
  8
0
100
AcDbLine
 10
-0.5936660005643762
 20
-0.9479806300020348
 30
0.0
 11
-0.3710478462378826
 21
-0.4815860999737008
 31
0.0
  0
LINE
  5
107
330
1F
100
AcDbEntity
  8
0
100
AcDbLine
 10
-0.8544822935675175
 20
-0.8259066110240043
 30
0.0
 11
-0.3800944699366615
 21
0.0435245412998935
 31
0.0
  0
LINE
  5
108
330
1F
100
AcDbEntity
  8
0
100
AcDbLine
 10
-1.486083598124115
 20
-0.1547227329759673
 30
0.0
 11
-1.501614626346546
 21
-0.1960689558023868
 31
0.0
  0
LINE
  5
109
330
1F
100
AcDbEntity
  8
0
100
AcDbLine
 10
-1.501614626346546
 20
-0.1960689558023868
 30
0.0
 11
-1.5079715963613
 21
-0.2398127571260542
 31
0.0
  0
LINE
  5
10A
330
1F
100
AcDbEntity
  8
0
100
AcDbLine
 10
-1.5079715963613
 20
-0.2398127571260542
 30
0.0
 11
-1.504878905908499
 21
-0.2839865578838462
 31
0.0
  0
LINE
  5
10B
330
1F
100
AcDbEntity
  8
0
100
AcDbLine
 10
-1.504878905908499
 20
-0.2839865578838462
 30
0.0
 11
-1.492485684311353
 21
-0.3266077679565009
 31
0.0
  0
LINE
  5
10C
330
1F
100
AcDbEntity
  8
0
100
AcDbLine
 10
-1.492485684311353
 20
-0.3266077679565009
 30
0.0
 11
-1.471357277740887
 21
-0.3657676017739809
 31
0.0
  0
LINE
  5
10D
330
1F
100
AcDbEntity
  8
0
100
AcDbLine
 10
-1.471357277740887
 20
-0.3657676017739809
 30
0.0
 11
-1.442448305767407
 21
-0.3997158570454459
 31
0.0
  0
LINE
  5
10E
330
1F
100
AcDbEntity
  8
0
100
AcDbLine
 10
-1.442448305767407
 20
-0.3997158570454459
 30
0.0
 11
-1.407058773126335
 21
-0.426938018690872
 31
0.0
  0
LINE
  5
10F
330
1F
100
AcDbEntity
  8
0
100
AcDbLine
 10
-1.407058773126335
 20
-0.426938018690872
 30
0.0
 11
-1.366775385459865
 21
-0.4462214912820272
 31
0.0
  0
LINE
  5
110
330
1F
100
AcDbEntity
  8
0
100
AcDbLine
 10
-1.366775385459865
 20
-0.4462214912820272
 30
0.0
 11
-1.323400755699258
 21
-0.4567083007251015
 31
0.0
  0
LINE
  5
111
330
1F
100
AcDbEntity
  8
0
100
AcDbLine
 10
-1.323400755699258
 20
-0.4567083007251015
 30
0.0
 11
-1.278873596893415
 21
-0.4579322073600872
 31
0.0
  0
LINE
  5
112
330
1F
100
AcDbEntity
  8
0
100
AcDbLine
 10
-1.278873596893415
 20
-0.4579322073600872
 30
0.0
 11
-1.235183282673074
 21
-0.4498388126792857
 31
0.0
  0
LINE
  5
113
330
1F
100
AcDbEntity
  8
0
100
AcDbLine
 10
-1.235183282673074
 20
-0.4498388126792857
 30
0.0
 11
-1.194282325845454
 21
-0.432787902467014
 31
0.0
  0
LINE
  5
114
330
1F
100
AcDbEntity
  8
0
100
AcDbLine
 10
-2.053596265789774
 20
0.3830524108047293
 30
0.0
 11
-2.083589926784541
 21
0.3590997862628393
 31
0.0
  0
LINE
  5
115
330
1F
100
AcDbEntity
  8
0
100
AcDbLine
 10
-2.083589926784541
 20
0.3590997862628393
 30
0.0
 11
-2.106197284570159
 21
0.32812926148274
 31
0.0
  0
LINE
  5
116
330
1F
100
AcDbEntity
  8
0
100
AcDbLine
 10
-2.106197284570159
 20
0.32812926148274
 30
0.0
 11
-2.119880564982428
 21
0.2922604818886834
 31
0.0
  0
LINE
  5
117
330
1F
100
AcDbEntity
  8
0
100
AcDbLine
 10
-2.119880564982428
 20
0.2922604818886834
 30
0.0
 11
-2.123714289432552
 21
0.25394432207359
 31
0.0
  0
LINE
  5
118
330
1F
100
AcDbEntity
  8
0
100
AcDbLine
 10
-2.123714289432552
 20
0.25394432207359
 30
0.0
 11
-2.117446458836891
 21
0.2157941303785101
 31
0.0
  0
LINE
  5
119
330
1F
100
AcDbEntity
  8
0
100
AcDbLine
 10
-2.117446458836891
 20
0.2157941303785101
 30
0.0
 11
-2.10151324263434
 21
0.180407059994653
 31
0.0
  0
LINE
  5
11A
330
1F
100
AcDbEntity
  8
0
100
AcDbLine
 10
-2.10151324263434
 20
0.180407059994653
 30
0.0
 11
-2.077006838874362
 21
0.1501878123357942
 31
0.0
  0
LINE
  5
11B
330
1F
100
AcDbEntity
  8
0
100
AcDbLine
 10
-2.077006838874362
 20
0.1501878123357942
 30
0.0
 11
-2.045599341096948
 21
0.1271866035567339
 31
0.0
  0
LINE
  5
11C
330
1F
100
AcDbEntity
  8
0
100
AcDbLine
 10
-2.045599341096948
 20
0.1271866035567339
 30
0.0
 11
-2.009428252356307
 21
0.112961901310915
 31
0.0
  0
LINE
  5
11D
330
1F
100
AcDbEntity
  8
0
100
AcDbLine
 10
-2.009428252356307
 20
0.112961901310915
 30
0.0
 11
-1.970951588185153
 21
0.1084766297977625
 31
0.0
  0
LINE
  5
11E
330
1F
100
AcDbEntity
  8
0
100
AcDbLine
 10
-1.970951588185153
 20
0.1084766297977625
 30
0.0
 11
-1.932782235251327
 21
0.1140342741442515
 31
0.0
  0
LINE
  5
11F
330
1F
100
AcDbEntity
  8
0
100
AcDbLine
 10
-1.932782235251327
 20
0.1140342741442515
 30
0.0
 11
-1.897512355086951
 21
0.1292587797512991
 31
0.0
  0
LINE
  5
120
330
1F
100
AcDbEntity
  8
0
100
AcDbLine
 10
-1.897512355086951
 20
0.1292587797512991
 30
0.0
 11
-1.106993524769618
 21
0.6207295687840972
 31
0.0
  0
LINE
  5
121
330
1F
100
AcDbEntity
  8
0
100
AcDbLine
 10
-2.081667383701161
 20
1.285552633284857
 30
0.0
 11
-2.114031144507658
 21
1.308101363632014
 31
0.0
  0
LINE
  5
122
330
1F
100
AcDbEntity
  8
0
100
AcDbLine
 10
-2.114031144507658
 20
1.308101363632014
 30
0.0
 11
-2.139642293600271
 21
1.338210644354707
 31
0.0
  0
LINE
  5
123
330
1F
100
AcDbEntity
  8
0
100
AcDbLine
 10
-2.139642293600271
 20
1.338210644354707
 30
0.0
 11
-2.156753954004744
 21
1.373838139532108
 31
0.0
  0
LINE
  5
124
330
1F
100
AcDbEntity
  8
0
100
AcDbLine
 10
-2.156753954004744
 20
1.373838139532108
 30
0.0
 11
-2.164193911075733
 21
1.412563336474135
 31
0.0
  0
LINE
  5
125
330
1F
100
AcDbEntity
  8
0
100
AcDbLine
 10
-2.164193911075733
 20
1.412563336474135
 30
0.0
 11
-2.161446119877684
 21
1.451750503611131
 31
0.0
  0
LINE
  5
126
330
1F
100
AcDbEntity
  8
0
100
AcDbLine
 10
-2.161446119877684
 20
1.451750503611131
 30
0.0
 11
-2.148688287031811
 21
1.488727413488315
 31
0.0
  0
LINE
  5
127
330
1F
100
AcDbEntity
  8
0
100
AcDbLine
 10
-2.148688287031811
 20
1.488727413488315
 30
0.0
 11
-2.126782321216268
 21
1.520967895480784
 31
0.0
  0
LINE
  5
128
330
1F
100
AcDbEntity
  8
0
100
AcDbLine
 10
-2.126782321216268
 20
1.520967895480784
 30
0.0
 11
-2.097217615873832
 21
1.546265662557387
 31
0.0
  0
LINE
  5
129
330
1F
100
AcDbEntity
  8
0
100
AcDbLine
 10
-2.097217615873832
 20
1.546265662557387
 30
0.0
 11
-2.06201048427046
 21
1.562887120142355
 31
0.0
  0
LINE
  5
12A
330
1F
100
AcDbEntity
  8
0
100
AcDbLine
 10
-2.06201048427046
 20
1.562887120142355
 30
0.0
 11
-2.023566345580704
 21
1.569692084726003
 31
0.0
  0
LINE
  5
12B
330
1F
100
AcDbEntity
  8
0
100
AcDbLine
 10
-2.023566345580704
 20
1.569692084726003
 30
0.0
 11
-1.984514160217678
 21
1.566213491179985
 31
0.0
  0
LINE
  5
12C
330
1F
100
AcDbEntity
  8
0
100
AcDbLine
 10
-1.984514160217678
 20
1.566213491179985
 30
0.0
 11
-1.9475248376756
 21
1.552690115229423
 31
0.0
  0
LINE
  5
12D
330
1F
100
AcDbEntity
  8
0
100
AcDbLine
 10
-1.9475248376756
 20
1.552690115229423
 30
0.0
 11
-1.117468066648581
 21
1.07208346521174
 31
0.0
  0
LINE
  5
12E
330
1F
100
AcDbEntity
  8
0
100
AcDbLine
 10
-2.190440390912041
 20
0.6056069507453514
 30
0.0
 11
-2.233179911702839
 21
0.6275676844311736
 31
0.0
  0
LINE
  5
12F
330
1F
100
AcDbEntity
  8
0
100
AcDbLine
 10
-2.233179911702839
 20
0.6275676844311736
 30
0.0
 11
-2.27099131334739
 21
0.6573593761337952
 31
0.0
  0
LINE
  5
130
330
1F
100
AcDbEntity
  8
0
100
AcDbLine
 10
-2.27099131334739
 20
0.6573593761337952
 30
0.0
 11
-2.302429277897958
 21
0.6938518777771723
 31
0.0
  0
LINE
  5
131
330
1F
100
AcDbEntity
  8
0
100
AcDbLine
 10
-2.302429277897958
 20
0.6938518777771723
 30
0.0
 11
-2.326288295868686
 21
0.7356585684284611
 31
0.0
  0
LINE
  5
132
330
1F
100
AcDbEntity
  8
0
100
AcDbLine
 10
-2.326288295868686
 20
0.7356585684284611
 30
0.0
 11
-2.341649071317367
 21
0.7811878177340964
 31
0.0
  0
LINE
  5
133
330
1F
100
AcDbEntity
  8
0
100
AcDbLine
 10
-2.341649071317367
 20
0.7811878177340964
 30
0.0
 11
-2.347914574109526
 21
0.8287025245290359
 31
0.0
  0
LINE
  5
134
330
1F
100
AcDbEntity
  8
0
100
AcDbLine
 10
-2.347914574109526
 20
0.8287025245290359
 30
0.0
 11
-2.344834232651649
 21
0.8763856647964253
 31
0.0
  0
LINE
  5
135
330
1F
100
AcDbEntity
  8
0
100
AcDbLine
 10
-2.344834232651649
 20
0.8763856647964253
 30
0.0
 11
-2.332515141033802
 21
0.9224094879394428
 31
0.0
  0
LINE
  5
136
330
1F
100
AcDbEntity
  8
0
100
AcDbLine
 10
-2.332515141033802
 20
0.9224094879394428
 30
0.0
 11
-2.311419607844808
 21
0.9650057723847543
 31
0.0
  0
LINE
  5
137
330
1F
100
AcDbEntity
  8
0
100
AcDbLine
 10
-2.311419607844808
 20
0.9650057723847543
 30
0.0
 11
-2.282348889632127
 21
1.002534412664028
 31
0.0
  0
LINE
  5
138
330
1F
100
AcDbEntity
  8
0
100
AcDbLine
 10
-2.282348889632127
 20
1.002534412664028
 30
0.0
 11
-2.246413511958576
 21
1.033547580514787
 31
0.0
  0
LINE
  5
139
330
1F
100
AcDbEntity
  8
0
100
AcDbLine
 10
-2.246413511958576
 20
1.033547580514787
 30
0.0
 11
-2.204991159582784
 21
1.056846797786116
 31
0.0
  0
LINE
  5
13A
330
1F
100
AcDbEntity
  8
0
100
AcDbLine
 10
-2.204991159582784
 20
1.056846797786116
 30
0.0
 11
-1.68355678889874
 21
1.06415231813968
 31
0.0
  0
LINE
  5
13B
330
1F
100
AcDbEntity
  8
0
100
AcDbLine
 10
-0.43069985571253
 20
2.980910627144068
 30
0.0
 11
-0.4132440949689004
 21
3.024162509331366
 31
0.0
  0
LINE
  5
13C
330
1F
100
AcDbEntity
  8
0
100
AcDbLine
 10
-0.4132440949689004
 20
3.024162509331366
 30
0.0
 11
-0.3872372750674156
 21
3.06270810521545
 31
0.0
  0
LINE
  5
13D
330
1F
100
AcDbEntity
  8
0
100
AcDbLine
 10
-0.3872372750674156
 20
3.06270810521545
 30
0.0
 11
-0.3538352040025759
 21
3.094818161446601
 31
0.0
  0
LINE
  5
13E
330
1F
100
AcDbEntity
  8
0
100
AcDbLine
 10
-0.3538352040025759
 20
3.094818161446601
 30
0.0
 11
-0.3145280039860531
 21
3.119049687495658
 31
0.0
  0
LINE
  5
13F
330
1F
100
AcDbEntity
  8
0
100
AcDbLine
 10
-0.3145280039860531
 20
3.119049687495658
 30
0.0
 11
-0.2710735568924287
 21
3.134312269177546
 31
0.0
  0
LINE
  5
140
330
1F
100
AcDbEntity
  8
0
100
AcDbLine
 10
-0.2710735568924287
 20
3.134312269177546
 30
0.0
 11
-0.2254182228156852
 21
3.139918441172639
 31
0.0
  0
LINE
  5
141
330
1F
100
AcDbEntity
  8
0
100
AcDbLine
 10
-0.2254182228156852
 20
3.139918441172639
 30
0.0
 11
-0.1796085243419856
 21
3.135615560731538
 31
0.0
  0
LINE
  5
142
330
1F
100
AcDbEntity
  8
0
100
AcDbLine
 10
-0.1796085243419856
 20
3.135615560731538
 30
0.0
 11
-0.1356980049898923
 21
3.121597543695715
 31
0.0
  0
LINE
  5
143
330
1F
100
AcDbEntity
  8
0
100
AcDbLine
 10
-0.1356980049898923
 20
3.121597543695715
 30
0.0
 11
-0.095653750108938
 21
3.098495855442532
 31
0.0
  0
LINE
  5
144
330
1F
100
AcDbEntity
  8
0
100
AcDbLine
 10
-0.095653750108938
 20
3.098495855442532
 30
0.0
 11
-0.0612670779818021
 21
3.067350223202788
 31
0.0
  0
LINE
  5
145
330
1F
100
AcDbEntity
  8
0
100
AcDbLine
 10
-0.0612670779818021
 20
3.067350223202788
 30
0.0
 11
-0.0340726662655106
 21
3.029560577474073
 31
0.0
  0
LINE
  5
146
330
1F
100
AcDbEntity
  8
0
100
AcDbLine
 10
-0.0340726662655106
 20
3.029560577474073
 30
0.0
 11
-0.0152798954864442
 21
2.986822667700632
 31
0.0
  0
LINE
  5
147
330
1F
100
AcDbEntity
  8
0
100
AcDbLine
 10
-0.43069985571253
 20
2.980910627144068
 30
0.0
 11
-0.4217129600216457
 21
2.459266893920667
 31
0.0
  0
LINE
  5
148
330
1F
100
AcDbEntity
  8
0
100
AcDbLine
 10
-0.0152798954864442
 20
2.986822667700632
 30
0.0
 11
-0.0080649075724888
 21
2.465128597244766
 31
0.0
  0
LINE
  5
149
330
1F
100
AcDbEntity
  8
0
100
AcDbLine
 10
1.540927783761736
 20
1.613441602511722
 30
0.0
 11
1.577033015667337
 21
1.5919976009489
 31
0.0
  0
LINE
  5
14A
330
1F
100
AcDbEntity
  8
0
100
AcDbLine
 10
1.62686387455394
 20
1.525114199337313
 30
0.0
 11
1.63725873258484
 21
1.48417427054868
 31
0.0
  0
ENDSEC
  0
SECTION
  2
OBJECTS
  0
DICTIONARY
  5
C
330
0
100
AcDbDictionary
  3
ACAD_GROUP
350
D
  3
ACAD_LAYOUT
350
1A
  3
ACAD_MATERIAL
350
3B
  3
ACAD_MLEADERSTYLE
350
16D
  3
ACAD_MLINESTYLE
350
17
  3
ACAD_PLOTSETTINGS
350
19
  3
ACAD_VISUALSTYLE
350
2A
  3
ACDBHEADERROUNDTRIPXREC
350
14B
  3
ACDBVARIABLEDICTIONARY
350
16B
  0
DICTIONARY
  5
D
102
{ACAD_REACTORS
330
C
102
}
330
C
100
AcDbDictionary
  0
DICTIONARY
  5
1A
102
{ACAD_REACTORS
330
C
102
}
330
C
100
AcDbDictionary
  0
DICTIONARY
  5
3B
102
{ACAD_REACTORS
330
C
102
}
330
C
100
AcDbDictionary
  3
BYBLOCK
350
3D
  3
BYLAYER
350
3C
  3
GLOBAL
350
3E
  0
DICTIONARY
  5
16D
102
{ACAD_REACTORS
330
C
102
}
330
C
100
AcDbDictionary
  0
DICTIONARY
  5
17
102
{ACAD_REACTORS
330
C
102
}
330
C
100
AcDbDictionary
  3
STANDARD
350
18
  0
DICTIONARY
  5
19
102
{ACAD_REACTORS
330
C
102
}
330
C
100
AcDbDictionary
  0
DICTIONARY
  5
2A
102
{ACAD_REACTORS
330
C
102
}
330
C
100
AcDbDictionary
  3
2DWIREFRAME
350
2F
  3
3D_HIDDEN
350
31
  3
3DWIREFRAME
350
30
  3
BASIC
350
32
  3
BRIGHTEN
350
36
  3
COLORCHANGE
350
3A
  3
CONCEPTUAL
350
34
  3
DIM
350
35
  3
FACEPATTERN
350
39
  3
FLAT
350
2B
  3
FLATWITHEDGES
350
2C
  3
GOURAUD
350
2D
  3
GOURAUDWITHEDGES
350
2E
  3
LINEPATTERN
350
38
  3
REALISTIC
350
33
  3
THICKEN
350
37
  0
DICTIONARY
  5
14B
102
{ACAD_REACTORS
330
C
102
}
330
C
100
AcDbDictionary
  3
CEPSNTYPE
350
154
  3
DIMSTYLEDATA
350
16A
  3
FINGERPRINTGUID
350
155
  3
HYPERLINKBASE
350
14E
  3
INSUNITS
350
153
  3
LAYOUTDICT
350
150
  3
LWETCUNION
350
152
  3
PLOTSETDICT
350
151
  3
PSVPSCALE
350
157
  3
PUCSBASE
350
15A
  3
PUCSORGBACK
350
160
  3
PUCSORGBOTTOM
350
15C
  3
PUCSORGFRONT
350
15F
  3
PUCSORGLEFT
350
15D
  3
PUCSORGRIGHT
350
15E
  3
PUCSORGTOP
350
15B
  3
PUCSORTHOREF
350
158
  3
PUCSORTHOVIEW
350
159
  3
STYLESHEET
350
14F
  3
TSTACKALIGN
350
14C
  3
TSTACKSIZE
350
14D
  3
UCSBASE
350
163
  3
UCSORGBACK
350
169
  3
UCSORGBOTTOM
350
165
  3
UCSORGFRONT
350
168
  3
UCSORGLEFT
350
166
  3
UCSORGRIGHT
350
167
  3
UCSORGTOP
350
164
  3
UCSORTHOREF
350
161
  3
UCSORTHOVIEW
350
162
  3
VERSIONGUID
350
156
  0
DICTIONARY
  5
16B
102
{ACAD_REACTORS
330
C
102
}
330
C
100
AcDbDictionary
  3
DIMASSOC
350
16E
  3
HIDETEXT
350
16F
  0
MATERIAL
  5
3D
102
{ACAD_REACTORS
330
3B
102
}
102
{ACAD_XDICTIONARY
360
172
102
}
330
3B
100
AcDbMaterial
  1
ByBlock
  0
MATERIAL
  5
3C
102
{ACAD_REACTORS
330
3B
102
}
102
{ACAD_XDICTIONARY
360
170
102
}
330
3B
100
AcDbMaterial
  1
ByLayer
  0
MATERIAL
  5
3E
102
{ACAD_REACTORS
330
3B
102
}
102
{ACAD_XDICTIONARY
360
174
102
}
330
3B
100
AcDbMaterial
  1
Global
  0
MLINESTYLE
  5
18
102
{ACAD_REACTORS
330
17
102
}
330
17
100
AcDbMlineStyle
  2
Standard
 70
     0
  3

 62
   256
 51
90.0
 52
90.0
 71
     2
 49
0.5
 62
   256
  6
BYLAYER
 49
-0.5
 62
   256
  6
BYLAYER
  0
ACAD_PROXY_OBJECT
  5
2F
102
{ACAD_REACTORS
330
2A
102
}
330
2A
100
AcDbProxyObject
 90
      499
 91
      501
 93
      436
310
42CC9915DA5C99599C985B595049028333333333333E3BF0000000000000FB0107901411070040501600405405064090741402480A0340
1001
ACAD
1000
AcDbSavedByObjectVersion
1070
     0
  0
ACAD_PROXY_OBJECT
  5
31
102
{ACAD_REACTORS
330
2A
102
}
330
2A
100
AcDbProxyObject
 90
      499
 91
      501
 93
      500
310
424CD108121A5919195B90640502408333333333333E3BF0000000000000FB01079024090700405020000000000001110200405405064090740C02480A0340
1001
ACAD
1000
AcDbSavedByObjectVersion
1070
     0
  0
ACAD_PROXY_OBJECT
  5
30
102
{ACAD_REACTORS
330
2A
102
}
330
2A
100
AcDbProxyObject
 90
      499
 91
      501
 93
      436
310
42CCD915DA5C99599C985B595059028333333333333E3BF0000000000000FB0107901411070040501600405405064090741402480A0340
1001
ACAD
1000
AcDbSavedByObjectVersion
1070
     0
  0
ACAD_PROXY_OBJECT
  5
32
102
{ACAD_REACTORS
330
2A
102
}
330
2A
100
AcDbProxyObject
 90
      499
 91
      501
 93
      388
310
4150985CDA58D07406404333333333333E3BF0000000000000FB0107A41107004050150841D405064090741402480A0350
1001
ACAD
1000
AcDbSavedByObjectVersion
1070
     0
  0
ACAD_PROXY_OBJECT
  5
36
102
{ACAD_REACTORS
330
2A
102
}
330
2A
100
AcDbProxyObject
 90
      499
 91
      501
 93
      428
310
42109C9A59DA1D195B90C409028333333333333E3BF0000000000000FB010790141107004050150841D405064090741402480A029950
1001
ACAD
1000
AcDbSavedByObjectVersion
1070
     0
  0
ACAD_PROXY_OBJECT
  5
3A
102
{ACAD_REACTORS
330
2A
102
}
330
2A
100
AcDbProxyObject
 90
      499
 91
      501
 93
      452
310
42D0DBDB1BDC90DA185B99D95104090240C333333333333E3BF0000000000000FB0108901411070040501508421405064090741402480A0350
1001
ACAD
1000
AcDbSavedByObjectVersion
1070
     0
  0
ACAD_PROXY_OBJECT
  5
34
102
{ACAD_REACTORS
330
2A
102
}
330
2A
100
AcDbProxyObject
 90
      499
 91
      501
 93
      500
310
4290DBDB98D95C1D1D585B10940D028333333333333E3BF0000000000000FB0107902409070040501000000000000111010841D405064090740C02480A0340
1001
ACAD
1000
AcDbSavedByObjectVersion
1070
     0
  0
ACAD_PROXY_OBJECT
  5
35
102
{ACAD_REACTORS
330
2A
102
}
330
2A
100
AcDbProxyObject
 90
      499
 91
      501
 93
      412
310
40D11A5B50B409028333333333333E3BF0000000000000FB010790141107004050150841D405064090741402480A02677FFFFFD0
1001
ACAD
1000
AcDbSavedByObjectVersion
1070
     0
  0
ACAD_PROXY_OBJECT
  5
39
102
{ACAD_REACTORS
330
2A
102
}
330
2A
100
AcDbProxyObject
 90
      499
 91
      501
 93
      444
310
42D19858D95C185D1D195C9B90F409028333333333333E3BF0000000000000FB010790141107004050150841D405064090741402480A0350
1001
ACAD
1000
AcDbSavedByObjectVersion
1070
     0
  0
ACAD_PROXY_OBJECT
  5
2B
102
{ACAD_REACTORS
330
2A
102
}
330
2A
100
AcDbProxyObject
 90
      499
 91
      501
 93
      388
310
41119B185D240901404333333333333E3BF0000000000000F9010740A41107004050150841D405064090741402480A1B50
1001
ACAD
1000
AcDbSavedByObjectVersion
1070
     0
  0
ACAD_PROXY_OBJECT
  5
2C
102
{ACAD_REACTORS
330
2A
102
}
330
2A
100
AcDbProxyObject
 90
      499
 91
      501
 93
      476
310
43519B185D15DA5D1A115919D95CD0140901404333333333333E3BF0000000000000F9010740901411070040501600405405064090741402480A1B50
1001
ACAD
1000
AcDbSavedByObjectVersion
1070
     0
  0
ACAD_PROXY_OBJECT
  5
2D
102
{ACAD_REACTORS
330
2A
102
}
330
2A
100
AcDbProxyObject
 90
      499
 91
      501
 93
      412
310
41D1DBDD5C985D5910240902404333333333333E3BF0000000000000F9010740A411070040501641D405064090741402480A1B50
1001
ACAD
1000
AcDbSavedByObjectVersion
1070
     0
  0
ACAD_PROXY_OBJECT
  5
2E
102
{ACAD_REACTORS
330
2A
102
}
330
2A
100
AcDbProxyObject
 90
      499
 91
      501
 93
      500
310
4411DBDD5C985D5915DA5D1A115919D95CD0340902404333333333333E3BF0000000000000F9010740901411070040501600405405064090741402480A1B50
1001
ACAD
1000
AcDbSavedByObjectVersion
1070
     0
  0
ACAD_PROXY_OBJECT
  5
38
102
{ACAD_REACTORS
330
2A
102
}
330
2A
100
AcDbProxyObject
 90
      499
 91
      501
 93
      444
310
42D31A5B995C185D1D195C9B90E409028333333333333E3BF0000000000000FB010790141107004050750841D405064090741402483A0350
1001
ACAD
1000
AcDbSavedByObjectVersion
1070
     0
  0
ACAD_PROXY_OBJECT
  5
33
102
{ACAD_REACTORS
330
2A
102
}
330
2A
100
AcDbProxyObject
 90
      499
 91
      501
 93
      420
310
425499585B1A5CDD1A58D08409028333333333333E3BF0000000000000FB01079019070040501508421405064090741402480A1B40
1001
ACAD
1000
AcDbSavedByObjectVersion
1070
     0
  0
ACAD_PROXY_OBJECT
  5
37
102
{ACAD_REACTORS
330
2A
102
}
330
2A
100
AcDbProxyObject
 90
      499
 91
      501
 93
      412
310
41D51A1A58DAD95B90D409028333333333333E3BF0000000000000FB010790141107004050150C41D405064090741402480A0350
1001
ACAD
1000
AcDbSavedByObjectVersion
1070
     0
  0
XRECORD
  5
154
102
{ACAD_REACTORS
330
14B
102
}
330
14B
100
AcDbXrecord
 90
        0
  0
XRECORD
  5
16A
102
{ACAD_REACTORS
330
14B
102
}
330
14B
100
AcDbXrecord
1000
DSTYLE
1002
{
1070
   340
340
11
1002
}
  0
XRECORD
  5
155
102
{ACAD_REACTORS
330
14B
102
}
330
14B
100
AcDbXrecord
  1
{5E0276B8-9680-4828-8E46-2FAE3DAF1548}
  0
XRECORD
  5
14E
102
{ACAD_REACTORS
330
14B
102
}
330
14B
100
AcDbXrecord
  1

  0
XRECORD
  5
153
102
{ACAD_REACTORS
330
14B
102
}
330
14B
100
AcDbXrecord
 90
        1
  0
XRECORD
  5
150
102
{ACAD_REACTORS
330
14B
102
}
330
14B
100
AcDbXrecord
340
1A
  0
XRECORD
  5
152
102
{ACAD_REACTORS
330
14B
102
}
330
14B
100
AcDbXrecord
 90
    10781
  0
XRECORD
  5
151
102
{ACAD_REACTORS
330
14B
102
}
330
14B
100
AcDbXrecord
340
19
  0
XRECORD
  5
157
102
{ACAD_REACTORS
330
14B
102
}
330
14B
100
AcDbXrecord
 40
0.0
  0
XRECORD
  5
15A
102
{ACAD_REACTORS
330
14B
102
}
330
14B
100
AcDbXrecord
340
0
  0
XRECORD
  5
160
102
{ACAD_REACTORS
330
14B
102
}
330
14B
100
AcDbXrecord
 10
0.0
 20
0.0
 30
0.0
  0
XRECORD
  5
15C
102
{ACAD_REACTORS
330
14B
102
}
330
14B
100
AcDbXrecord
 10
0.0
 20
0.0
 30
0.0
  0
XRECORD
  5
15F
102
{ACAD_REACTORS
330
14B
102
}
330
14B
100
AcDbXrecord
 10
0.0
 20
0.0
 30
0.0
  0
XRECORD
  5
15D
102
{ACAD_REACTORS
330
14B
102
}
330
14B
100
AcDbXrecord
 10
0.0
 20
0.0
 30
0.0
  0
XRECORD
  5
15E
102
{ACAD_REACTORS
330
14B
102
}
330
14B
100
AcDbXrecord
 10
0.0
 20
0.0
 30
0.0
  0
XRECORD
  5
15B
102
{ACAD_REACTORS
330
14B
102
}
330
14B
100
AcDbXrecord
 10
0.0
 20
0.0
 30
0.0
  0
XRECORD
  5
158
102
{ACAD_REACTORS
330
14B
102
}
330
14B
100
AcDbXrecord
340
0
  0
XRECORD
  5
159
102
{ACAD_REACTORS
330
14B
102
}
330
14B
100
AcDbXrecord
 70
     0
  0
XRECORD
  5
14F
102
{ACAD_REACTORS
330
14B
102
}
330
14B
100
AcDbXrecord
  1

  0
XRECORD
  5
14C
102
{ACAD_REACTORS
330
14B
102
}
330
14B
100
AcDbXrecord
 90
        1
  0
XRECORD
  5
14D
102
{ACAD_REACTORS
330
14B
102
}
330
14B
100
AcDbXrecord
 90
       70
  0
XRECORD
  5
163
102
{ACAD_REACTORS
330
14B
102
}
330
14B
100
AcDbXrecord
340
0
  0
XRECORD
  5
169
102
{ACAD_REACTORS
330
14B
102
}
330
14B
100
AcDbXrecord
 10
0.0
 20
0.0
 30
0.0
  0
XRECORD
  5
165
102
{ACAD_REACTORS
330
14B
102
}
330
14B
100
AcDbXrecord
 10
0.0
 20
0.0
 30
0.0
  0
XRECORD
  5
168
102
{ACAD_REACTORS
330
14B
102
}
330
14B
100
AcDbXrecord
 10
0.0
 20
0.0
 30
0.0
  0
XRECORD
  5
166
102
{ACAD_REACTORS
330
14B
102
}
330
14B
100
AcDbXrecord
 10
0.0
 20
0.0
 30
0.0
  0
XRECORD
  5
167
102
{ACAD_REACTORS
330
14B
102
}
330
14B
100
AcDbXrecord
 10
0.0
 20
0.0
 30
0.0
  0
XRECORD
  5
164
102
{ACAD_REACTORS
330
14B
102
}
330
14B
100
AcDbXrecord
 10
0.0
 20
0.0
 30
0.0
  0
XRECORD
  5
161
102
{ACAD_REACTORS
330
14B
102
}
330
14B
100
AcDbXrecord
340
0
  0
XRECORD
  5
162
102
{ACAD_REACTORS
330
14B
102
}
330
14B
100
AcDbXrecord
 70
     0
  0
XRECORD
  5
156
102
{ACAD_REACTORS
330
14B
102
}
330
14B
100
AcDbXrecord
  1
{FAEB1C32-E019-11D5-929B-00C0DF256EC4}
  0
DICTIONARYVAR
  5
16E
102
{ACAD_REACTORS
330
16B
102
}
330
16B
100
DictionaryVariables
280
     0
  1
2
  0
DICTIONARYVAR
  5
16F
102
{ACAD_REACTORS
330
16B
102
}
330
16B
100
DictionaryVariables
280
     0
  1
1
  0
DICTIONARY
  5
172
330
3D
100
AcDbDictionary
280
     1
  3
ACAD_XREC_ROUNDTRIP
360
173
  0
DICTIONARY
  5
170
330
3C
100
AcDbDictionary
280
     1
  3
ACAD_XREC_ROUNDTRIP
360
171
  0
DICTIONARY
  5
174
330
3E
100
AcDbDictionary
280
     1
  3
ACAD_XREC_ROUNDTRIP
360
175
  0
XRECORD
  5
173
102
{ACAD_REACTORS
330
172
102
}
330
172
100
AcDbXrecord
102
MATERIAL
148
0.0
149
0.0
149
0.0
 93
        0
 94
      127
282
     0
 72
     1
 77
     1
171
     1
175
     1
179
     1
273
     0
  0
XRECORD
  5
171
102
{ACAD_REACTORS
330
170
102
}
330
170
100
AcDbXrecord
102
MATERIAL
148
0.0
149
0.0
149
0.0
 93
        0
 94
      127
282
     0
 72
     1
 77
     1
171
     1
175
     1
179
     1
273
     0
  0
XRECORD
  5
175
102
{ACAD_REACTORS
330
174
102
}
330
174
100
AcDbXrecord
102
MATERIAL
148
0.0
149
0.0
149
0.0
 93
        0
 94
      127
282
     0
 72
     1
 77
     1
171
     1
175
     1
179
     1
273
     0
  0
ENDSEC
  0
EOF
